ISO-10303-21;
HEADER;
FILE_DESCRIPTION (( 'STEP AP203' ),
    '1' );
FILE_NAME ('5720 LIQUID LIGHTGUIDE, INPUT END.STEP',
    '2020-12-28T15:30:41',
    ( '' ),
    ( '' ),
    'SwSTEP 2.0',
    'SolidWorks 2019',
    '' );
FILE_SCHEMA (( 'CONFIG_CONTROL_DESIGN' ));
ENDSEC;

DATA;
#1 = DATE_AND_TIME ( #312, #288 ) ;
#2 = EDGE_CURVE ( 'NONE', #294, #294, #207, .T. ) ;
#3 = ORIENTED_EDGE ( 'NONE', *, *, #213, .T. ) ;
#4 = ADVANCED_BREP_SHAPE_REPRESENTATION ( '5720 LIQUID LIGHTGUIDE, INPUT END', ( #184, #252 ), #267 ) ;
#5 = EDGE_LOOP ( 'NONE', ( #315 ) ) ;
#6 = ADVANCED_FACE ( 'NONE', ( #90, #140 ), #7, .T. ) ;
#7 = CONICAL_SURFACE ( 'NONE', #129, 0.3109999999999997211, 0.4768918676655297673 ) ;
#8 = CARTESIAN_POINT ( 'NONE',  ( 0.3109999999999999987, 0.0000000000000000000, 5.955000000000002736 ) ) ;
#9 = CARTESIAN_POINT ( 'NONE',  ( 0.0000000000000000000, 0.0000000000000000000, 0.9649999999999999689 ) ) ;
#10 = CARTESIAN_POINT ( 'NONE',  ( 0.1870000000000000551, 0.0000000000000000000, 5.965000000000000746 ) ) ;
#11 = DIRECTION ( 'NONE',  ( 1.000000000000000000, 0.0000000000000000000, -0.0000000000000000000 ) ) ;
#12 = EDGE_LOOP ( 'NONE', ( #287 ) ) ;
#13 = VERTEX_POINT ( 'NONE', #57 ) ;
#14 = CARTESIAN_POINT ( 'NONE',  ( 0.0000000000000000000, 0.0000000000000000000, 5.965000000000000746 ) ) ;
#15 = DIRECTION ( 'NONE',  ( -1.170791997284684236E-16, -0.0000000000000000000, -1.000000000000000000 ) ) ;
#16 = VERTEX_POINT ( 'NONE', #10 ) ;
#17 = PLANE ( 'NONE',  #318 ) ;
#18 = APPROVAL_DATE_TIME ( #49, #37 ) ;
#19 = DIRECTION ( 'NONE',  ( -0.0000000000000000000, -0.0000000000000000000, -1.000000000000000000 ) ) ;
#20 = AXIS2_PLACEMENT_3D ( 'NONE', #42, #227, #295 ) ;
#21 = DIRECTION ( 'NONE',  ( -0.0000000000000000000, -0.0000000000000000000, -1.000000000000000000 ) ) ;
#22 = COORDINATED_UNIVERSAL_TIME_OFFSET ( 5, 0, .BEHIND. ) ;
#23 = CC_DESIGN_SECURITY_CLASSIFICATION ( #217, ( #237 ) ) ;
#24 = APPROVAL_ROLE ( '' ) ;
#25 = AXIS2_PLACEMENT_3D ( 'NONE', #48, #331, #92 ) ;
#26 = DESIGN_CONTEXT ( 'detailed design', #111, 'design' ) ;
#27 = ADVANCED_FACE ( 'NONE', ( #226 ), #109, .F. ) ;
#28 = EDGE_LOOP ( 'NONE', ( #263 ) ) ;
#29 = LOCAL_TIME ( 10, 30, 41.00000000000000000, #205 ) ;
#30 = EDGE_LOOP ( 'NONE', ( #78 ) ) ;
#31 = EDGE_CURVE ( 'NONE', #16, #16, #188, .T. ) ;
#32 = CC_DESIGN_PERSON_AND_ORGANIZATION_ASSIGNMENT ( #281, #202, ( #237 ) ) ;
#33 = LOCAL_TIME ( 10, 30, 41.00000000000000000, #22 ) ;
#34 = FACE_OUTER_BOUND ( 'NONE', #114, .T. ) ;
#35 = CARTESIAN_POINT ( 'NONE',  ( 0.2305000000000000382, 0.0000000000000000000, 0.9649999999999999689 ) ) ;
#36 = CARTESIAN_POINT ( 'NONE',  ( 5.559243838070695887, -0.3109999999999999987, 6.128508623988398796 ) ) ;
#37 = APPROVAL ( #72, 'UNSPECIFIED' ) ;
#38 = VERTEX_POINT ( 'NONE', #116 ) ;
#39 = CARTESIAN_POINT ( 'NONE',  ( 0.0000000000000000000, 0.0000000000000000000, 5.965000000000000746 ) ) ;
#40 = EDGE_LOOP ( 'NONE', ( #246 ) ) ;
#41 = DIRECTION ( 'NONE',  ( -0.0000000000000000000, -0.0000000000000000000, 1.000000000000000000 ) ) ;
#42 = CARTESIAN_POINT ( 'NONE',  ( 0.0000000000000000000, 0.0000000000000000000, 5.965000000000000746 ) ) ;
#43 = ORIENTED_EDGE ( 'NONE', *, *, #242, .T. ) ;
#44 = APPLICATION_PROTOCOL_DEFINITION ( 'international standard', 'config_control_design', 1994, #265 ) ;
#45 = ORGANIZATION ( 'UNSPECIFIED', 'UNSPECIFIED', '' ) ;
#46 = FACE_OUTER_BOUND ( 'NONE', #238, .T. ) ;
#47 = COORDINATED_UNIVERSAL_TIME_OFFSET ( 5, 0, .BEHIND. ) ;
#48 = CARTESIAN_POINT ( 'NONE',  ( 0.0000000000000000000, 0.0000000000000000000, 0.9649999999999999689 ) ) ;
#49 = DATE_AND_TIME ( #254, #33 ) ;
#50 = EDGE_CURVE ( 'NONE', #330, #330, #244, .T. ) ;
#51 = AXIS2_PLACEMENT_3D ( 'NONE', #36, #321, #291 ) ;
#52 = EDGE_LOOP ( 'NONE', ( #179 ) ) ;
#53 = ORIENTED_EDGE ( 'NONE', *, *, #317, .T. ) ;
#54 = CIRCLE ( 'NONE', #79, 0.2305000000000000382 ) ;
#55 = ADVANCED_FACE ( 'NONE', ( #155, #83 ), #161, .T. ) ;
#56 = AXIS2_PLACEMENT_3D ( 'NONE', #196, #258, #122 ) ;
#57 = CARTESIAN_POINT ( 'NONE',  ( -0.3109999999999995546, 0.0000000000000000000, 1.809999999999999831 ) ) ;
#58 = DIRECTION ( 'NONE',  ( 1.000000000000000000, 0.0000000000000000000, 0.0000000000000000000 ) ) ;
#59 =( NAMED_UNIT ( * ) PLANE_ANGLE_UNIT ( ) SI_UNIT ( $, .RADIAN. ) );
#60 = DIRECTION ( 'NONE',  ( 1.000000000000000000, 0.0000000000000000000, 0.0000000000000000000 ) ) ;
#61 = DIRECTION ( 'NONE',  ( -1.000000000000000000, 0.0000000000000000000, 0.0000000000000000000 ) ) ;
#62 = EDGE_LOOP ( 'NONE', ( #308 ) ) ;
#63 = AXIS2_PLACEMENT_3D ( 'NONE', #255, #336, #280 ) ;
#64 = VERTEX_POINT ( 'NONE', #84 ) ;
#65 = CARTESIAN_POINT ( 'NONE',  ( 0.0000000000000000000, 0.0000000000000000000, 5.965000000000000746 ) ) ;
#66 = DIRECTION ( 'NONE',  ( -9.828127972930715824E-17, -0.0000000000000000000, -1.000000000000000000 ) ) ;
#67 = CALENDAR_DATE ( 2020, 28, 12 ) ;
#68 = DIRECTION ( 'NONE',  ( 0.0000000000000000000, 0.0000000000000000000, 1.000000000000000000 ) ) ;
#69 = SECURITY_CLASSIFICATION_LEVEL ( 'unclassified' ) ;
#70 = DIRECTION ( 'NONE',  ( -1.170791997284684236E-16, -0.0000000000000000000, -1.000000000000000000 ) ) ;
#71 = APPROVAL_DATE_TIME ( #309, #201 ) ;
#72 = APPROVAL_STATUS ( 'not_yet_approved' ) ;
#73 = CC_DESIGN_DATE_AND_TIME_ASSIGNMENT ( #1, #175, ( #217 ) ) ;
#74 = ADVANCED_FACE ( 'NONE', ( #34, #245 ), #268, .F. ) ;
#75 = DATE_TIME_ROLE ( 'creation_date' ) ;
#76 = AXIS2_PLACEMENT_3D ( 'NONE', #273, #106, #104 ) ;
#77 = EDGE_LOOP ( 'NONE', ( #162 ) ) ;
#78 = ORIENTED_EDGE ( 'NONE', *, *, #138, .F. ) ;
#79 = AXIS2_PLACEMENT_3D ( 'NONE', #164, #68, #277 ) ;
#80 = CIRCLE ( 'NONE', #211, 0.3109999999999997766 ) ;
#81 = EDGE_CURVE ( 'NONE', #243, #243, #125, .T. ) ;
#82 = DIRECTION ( 'NONE',  ( 1.000000000000000000, 0.0000000000000000000, 0.0000000000000000000 ) ) ;
#83 = FACE_BOUND ( 'NONE', #142, .T. ) ;
#84 = CARTESIAN_POINT ( 'NONE',  ( -0.2799999999999998046, 0.0000000000000000000, 1.750000000000000000 ) ) ;
#85 = CYLINDRICAL_SURFACE ( 'NONE', #300, 0.1870000000000000551 ) ;
#86 = CARTESIAN_POINT ( 'NONE',  ( 0.0000000000000000000, 0.0000000000000000000, 5.965000000000000746 ) ) ;
#87 = DIRECTION ( 'NONE',  ( -1.000000000000000000, 0.0000000000000000000, 0.0000000000000000000 ) ) ;
#88 = VERTEX_POINT ( 'NONE', #112 ) ;
#89 = FACE_OUTER_BOUND ( 'NONE', #297, .T. ) ;
#90 = FACE_BOUND ( 'NONE', #223, .T. ) ;
#91 = CIRCLE ( 'NONE', #101, 0.3010000000000009890 ) ;
#92 = DIRECTION ( 'NONE',  ( 1.000000000000000000, 0.0000000000000000000, 0.0000000000000000000 ) ) ;
#93 = CALENDAR_DATE ( 2020, 28, 12 ) ;
#94 = DIRECTION ( 'NONE',  ( -0.0000000000000000000, -0.0000000000000000000, -1.000000000000000000 ) ) ;
#95 = PERSON_AND_ORGANIZATION_ROLE ( 'design_supplier' ) ;
#96 = CARTESIAN_POINT ( 'NONE',  ( 2.119133515085278517E-16, 0.0000000000000000000, 1.809999999999999831 ) ) ;
#97 = PERSON_AND_ORGANIZATION ( #204, #45 ) ;
#98 = AXIS2_PLACEMENT_3D ( 'NONE', #86, #241, #58 ) ;
#99 = APPROVAL_PERSON_ORGANIZATION ( #119, #105, #24 ) ;
#100 = ORIENTED_EDGE ( 'NONE', *, *, #284, .T. ) ;
#101 = AXIS2_PLACEMENT_3D ( 'NONE', #14, #200, #203 ) ;
#102 = ORIENTED_EDGE ( 'NONE', *, *, #2, .F. ) ;
#103 = ADVANCED_FACE ( 'NONE', ( #107, #296 ), #157, .T. ) ;
#104 = DIRECTION ( 'NONE',  ( -1.000000000000000000, 0.0000000000000000000, 0.0000000000000000000 ) ) ;
#105 = APPROVAL ( #173, 'UNSPECIFIED' ) ;
#106 = DIRECTION ( 'NONE',  ( -0.0000000000000000000, -0.0000000000000000000, -1.000000000000000000 ) ) ;
#107 = FACE_OUTER_BOUND ( 'NONE', #198, .T. ) ;
#108 = CARTESIAN_POINT ( 'NONE',  ( 0.3109999999999999987, 0.0000000000000000000, 1.045000000000000373 ) ) ;
#109 = PLANE ( 'NONE',  #51 ) ;
#110 = ORIENTED_EDGE ( 'NONE', *, *, #242, .F. ) ;
#111 = APPLICATION_CONTEXT ( 'configuration controlled 3d designs of mechanical parts and assemblies' ) ;
#112 = CARTESIAN_POINT ( 'NONE',  ( -0.3109999999999994991, 0.0000000000000000000, 1.689999999999999725 ) ) ;
#113 = DIRECTION ( 'NONE',  ( -1.000000000000000000, 0.0000000000000000000, 0.0000000000000000000 ) ) ;
#114 = EDGE_LOOP ( 'NONE', ( #214 ) ) ;
#115 = LOCAL_TIME ( 10, 30, 41.00000000000000000, #285 ) ;
#116 = CARTESIAN_POINT ( 'NONE',  ( 0.3010000000000009890, 0.0000000000000000000, 5.965000000000000746 ) ) ;
#117 = DIRECTION ( 'NONE',  ( 0.0000000000000000000, 0.0000000000000000000, 1.000000000000000000 ) ) ;
#118 = ADVANCED_FACE ( 'NONE', ( #167, #306 ), #136, .T. ) ;
#119 = PERSON_AND_ORGANIZATION ( #204, #45 ) ;
#120 = CARTESIAN_POINT ( 'NONE',  ( 0.0000000000000000000, 0.0000000000000000000, 0.0000000000000000000 ) ) ;
#121 = PERSON_AND_ORGANIZATION_ROLE ( 'design_owner' ) ;
#122 = DIRECTION ( 'NONE',  ( 1.000000000000000000, 0.0000000000000000000, 0.0000000000000000000 ) ) ;
#123 = EDGE_CURVE ( 'NONE', #130, #130, #134, .T. ) ;
#124 = COORDINATED_UNIVERSAL_TIME_OFFSET ( 5, 0, .BEHIND. ) ;
#125 = CIRCLE ( 'NONE', #228, 0.3109999999999999987 ) ;
#126 = EDGE_LOOP ( 'NONE', ( #212 ) ) ;
#127 = ORIENTED_EDGE ( 'NONE', *, *, #50, .F. ) ;
#128 = CIRCLE ( 'NONE', #337, 0.2800000000000000266 ) ;
#129 = AXIS2_PLACEMENT_3D ( 'NONE', #194, #15, #165 ) ;
#130 = VERTEX_POINT ( 'NONE', #247 ) ;
#131 = DIRECTION ( 'NONE',  ( 1.170791997284684236E-16, 0.0000000000000000000, 1.000000000000000000 ) ) ;
#132 = CONICAL_SURFACE ( 'NONE', #316, 0.2305000000000000382, 0.7853981633974892462 ) ;
#133 = CARTESIAN_POINT ( 'NONE',  ( 2.048885995248197414E-16, 0.0000000000000000000, 1.750000000000000000 ) ) ;
#134 = CIRCLE ( 'NONE', #235, 0.2204999999999961990 ) ;
#135 = LENGTH_MEASURE_WITH_UNIT ( LENGTH_MEASURE( 0.02539999999999999897 ), #189 );
#136 = CYLINDRICAL_SURFACE ( 'NONE', #20, 0.3109999999999999987 ) ;
#137 = CARTESIAN_POINT ( 'NONE',  ( 0.0000000000000000000, 0.0000000000000000000, 6.128508623988398796 ) ) ;
#138 = EDGE_CURVE ( 'NONE', #13, #13, #80, .T. ) ;
#139 = DIRECTION ( 'NONE',  ( 0.0000000000000000000, 0.0000000000000000000, 1.000000000000000000 ) ) ;
#140 = FACE_OUTER_BOUND ( 'NONE', #126, .T. ) ;
#141 = FACE_OUTER_BOUND ( 'NONE', #325, .T. ) ;
#142 = EDGE_LOOP ( 'NONE', ( #110 ) ) ;
#143 = CYLINDRICAL_SURFACE ( 'NONE', #225, 0.3109999999999999987 ) ;
#144 = ADVANCED_FACE ( 'NONE', ( #251, #323 ), #274, .T. ) ;
#145 = CC_DESIGN_PERSON_AND_ORGANIZATION_ASSIGNMENT ( #236, #231, ( #217 ) ) ;
#146 = DIRECTION ( 'NONE',  ( 0.0000000000000000000, 0.0000000000000000000, 1.000000000000000000 ) ) ;
#147 = APPROVAL_DATE_TIME ( #332, #105 ) ;
#148 = EDGE_CURVE ( 'NONE', #320, #320, #262, .T. ) ;
#149 = EDGE_LOOP ( 'NONE', ( #127 ) ) ;
#150 = DIMENSIONAL_EXPONENTS ( 1.000000000000000000, 0.0000000000000000000, 0.0000000000000000000, 0.0000000000000000000, 0.0000000000000000000, 0.0000000000000000000, 0.0000000000000000000 ) ;
#151 = EDGE_LOOP ( 'NONE', ( #102 ) ) ;
#152 = CC_DESIGN_PERSON_AND_ORGANIZATION_ASSIGNMENT ( #305, #95, ( #237 ) ) ;
#153 = AXIS2_PLACEMENT_3D ( 'NONE', #9, #219, #11 ) ;
#154 = VERTEX_POINT ( 'NONE', #35 ) ;
#155 = FACE_OUTER_BOUND ( 'NONE', #12, .T. ) ;
#156 =( CONVERSION_BASED_UNIT ( 'INCH', #135 ) LENGTH_UNIT ( ) NAMED_UNIT ( #150 ) );
#157 = PLANE ( 'NONE',  #240 ) ;
#158 = CC_DESIGN_APPROVAL ( #201, ( #217 ) ) ;
#159 = FACE_OUTER_BOUND ( 'NONE', #149, .T. ) ;
#160 = FACE_OUTER_BOUND ( 'NONE', #264, .T. ) ;
#161 = CONICAL_SURFACE ( 'NONE', #177, 0.2800000000000000266, 0.4768918676655325428 ) ;
#162 = ORIENTED_EDGE ( 'NONE', *, *, #213, .F. ) ;
#163 = CARTESIAN_POINT ( 'NONE',  ( 0.0000000000000000000, 0.0000000000000000000, 5.965000000000000746 ) ) ;
#164 = CARTESIAN_POINT ( 'NONE',  ( 0.0000000000000000000, 0.0000000000000000000, 0.9649999999999999689 ) ) ;
#165 = DIRECTION ( 'NONE',  ( -1.000000000000000000, 0.0000000000000000000, 0.0000000000000000000 ) ) ;
#166 = DIRECTION ( 'NONE',  ( 1.000000000000000000, 0.0000000000000000000, 0.0000000000000000000 ) ) ;
#167 = FACE_OUTER_BOUND ( 'NONE', #253, .T. ) ;
#168 = CALENDAR_DATE ( 2020, 28, 12 ) ;
#169 = DIRECTION ( 'NONE',  ( -1.000000000000000000, 0.0000000000000000000, 0.0000000000000000000 ) ) ;
#170 = ADVANCED_FACE ( 'NONE', ( #46 ), #17, .F. ) ;
#171 = ORIENTED_EDGE ( 'NONE', *, *, #284, .F. ) ;
#172 = CARTESIAN_POINT ( 'NONE',  ( 0.0000000000000000000, 0.0000000000000000000, 0.0000000000000000000 ) ) ;
#173 = APPROVAL_STATUS ( 'not_yet_approved' ) ;
#174 = AXIS2_PLACEMENT_3D ( 'NONE', #163, #272, #250 ) ;
#175 = DATE_TIME_ROLE ( 'classification_date' ) ;
#176 = PRODUCT_RELATED_PRODUCT_CATEGORY ( 'detail', '', ( #260 ) ) ;
#177 = AXIS2_PLACEMENT_3D ( 'NONE', #133, #131, #60 ) ;
#178 = UNCERTAINTY_MEASURE_WITH_UNIT (LENGTH_MEASURE( 1.000000000000000082E-05 ), #156, 'distance_accuracy_value', 'NONE');
#179 = ORIENTED_EDGE ( 'NONE', *, *, #2, .T. ) ;
#180 = EDGE_LOOP ( 'NONE', ( #100 ) ) ;
#181 = CC_DESIGN_APPROVAL ( #105, ( #237 ) ) ;
#182 = EDGE_LOOP ( 'NONE', ( #314 ) ) ;
#183 = ADVANCED_FACE ( 'NONE', ( #248, #230 ), #85, .T. ) ;
#184 = MANIFOLD_SOLID_BREP ( 'Cut-Extrude2', #197 ) ;
#185 = AXIS2_PLACEMENT_3D ( 'NONE', #271, #193, #190 ) ;
#186 = CIRCLE ( 'NONE', #307, 0.3109999999999997211 ) ;
#187 = DIRECTION ( 'NONE',  ( -1.170791997284684236E-16, -0.0000000000000000000, -1.000000000000000000 ) ) ;
#188 = CIRCLE ( 'NONE', #98, 0.1870000000000000551 ) ;
#189 =( LENGTH_UNIT ( ) NAMED_UNIT ( * ) SI_UNIT ( $, .METRE. ) );
#190 = DIRECTION ( 'NONE',  ( 1.000000000000000000, 0.0000000000000000000, 0.0000000000000000000 ) ) ;
#191 = CARTESIAN_POINT ( 'NONE',  ( 0.0000000000000000000, 0.0000000000000000000, 75.81474264398107721 ) ) ;
#192 = CC_DESIGN_PERSON_AND_ORGANIZATION_ASSIGNMENT ( #338, #229, ( #279 ) ) ;
#193 = DIRECTION ( 'NONE',  ( 0.0000000000000000000, 0.0000000000000000000, -1.000000000000000000 ) ) ;
#194 = CARTESIAN_POINT ( 'NONE',  ( 1.978638475411116064E-16, 0.0000000000000000000, 1.689999999999999725 ) ) ;
#195 = FACE_BOUND ( 'NONE', #77, .T. ) ;
#196 = CARTESIAN_POINT ( 'NONE',  ( 0.0000000000000000000, 0.0000000000000000000, 1.045000000000000373 ) ) ;
#197 = CLOSED_SHELL ( 'NONE', ( #266, #302, #170, #74, #334, #144, #6, #55, #183, #103, #328, #118, #27 ) ) ;
#198 = EDGE_LOOP ( 'NONE', ( #3 ) ) ;
#199 = APPLICATION_PROTOCOL_DEFINITION ( 'international standard', 'config_control_design', 1994, #111 ) ;
#200 = DIRECTION ( 'NONE',  ( 0.0000000000000000000, 0.0000000000000000000, 1.000000000000000000 ) ) ;
#201 = APPROVAL ( #335, 'UNSPECIFIED' ) ;
#202 = PERSON_AND_ORGANIZATION_ROLE ( 'creator' ) ;
#203 = DIRECTION ( 'NONE',  ( 1.000000000000000000, 0.0000000000000000000, 0.0000000000000000000 ) ) ;
#204 = PERSON ( 'UNSPECIFIED', 'UNSPECIFIED', 'UNSPECIFIED', ('UNSPECIFIED'), ('UNSPECIFIED'), ('UNSPECIFIED') ) ;
#205 = COORDINATED_UNIVERSAL_TIME_OFFSET ( 5, 0, .BEHIND. ) ;
#206 = FACE_OUTER_BOUND ( 'NONE', #40, .T. ) ;
#207 = CIRCLE ( 'NONE', #289, 0.1870000000000000551 ) ;
#208 = MECHANICAL_CONTEXT ( 'NONE', #265, 'mechanical' ) ;
#209 = EDGE_CURVE ( 'NONE', #292, #292, #256, .T. ) ;
#210 = APPROVAL_PERSON_ORGANIZATION ( #257, #201, #261 ) ;
#211 = AXIS2_PLACEMENT_3D ( 'NONE', #96, #70, #169 ) ;
#212 = ORIENTED_EDGE ( 'NONE', *, *, #317, .F. ) ;
#213 = EDGE_CURVE ( 'NONE', #38, #38, #91, .T. ) ;
#214 = ORIENTED_EDGE ( 'NONE', *, *, #209, .T. ) ;
#215 = CC_DESIGN_DATE_AND_TIME_ASSIGNMENT ( #234, #75, ( #279 ) ) ;
#216 = FACE_OUTER_BOUND ( 'NONE', #286, .T. ) ;
#217 = SECURITY_CLASSIFICATION ( '', '', #69 ) ;
#218 = CARTESIAN_POINT ( 'NONE',  ( 0.2309999999999984288, 0.0000000000000000000, 0.9649999999999999689 ) ) ;
#219 = DIRECTION ( 'NONE',  ( 0.0000000000000000000, 0.0000000000000000000, 1.000000000000000000 ) ) ;
#220 = CC_DESIGN_PERSON_AND_ORGANIZATION_ASSIGNMENT ( #97, #121, ( #260 ) ) ;
#221 = CARTESIAN_POINT ( 'NONE',  ( 0.2305000000000000382, 0.0000000000000000000, 0.01000000000000303424 ) ) ;
#222 = CARTESIAN_POINT ( 'NONE',  ( 0.0000000000000000000, 0.0000000000000000000, 1.045000000000000373 ) ) ;
#223 = EDGE_LOOP ( 'NONE', ( #43 ) ) ;
#224 = DIRECTION ( 'NONE',  ( -1.170791997284684236E-16, -0.0000000000000000000, -1.000000000000000000 ) ) ;
#225 = AXIS2_PLACEMENT_3D ( 'NONE', #65, #21, #232 ) ;
#226 = FACE_OUTER_BOUND ( 'NONE', #151, .T. ) ;
#227 = DIRECTION ( 'NONE',  ( -0.0000000000000000000, -0.0000000000000000000, -1.000000000000000000 ) ) ;
#228 = AXIS2_PLACEMENT_3D ( 'NONE', #222, #324, #293 ) ;
#229 = PERSON_AND_ORGANIZATION_ROLE ( 'creator' ) ;
#230 = FACE_OUTER_BOUND ( 'NONE', #28, .T. ) ;
#231 = PERSON_AND_ORGANIZATION_ROLE ( 'classification_officer' ) ;
#232 = DIRECTION ( 'NONE',  ( -1.000000000000000000, 0.0000000000000000000, 0.0000000000000000000 ) ) ;
#233 = CONICAL_SURFACE ( 'NONE', #174, 0.3010000000000009890, 0.7853981633974995713 ) ;
#234 = DATE_AND_TIME ( #93, #115 ) ;
#235 = AXIS2_PLACEMENT_3D ( 'NONE', #120, #19, #327 ) ;
#236 = PERSON_AND_ORGANIZATION ( #204, #45 ) ;
#237 = PRODUCT_DEFINITION_FORMATION_WITH_SPECIFIED_SOURCE ( 'ANY', '', #260, .NOT_KNOWN. ) ;
#238 = EDGE_LOOP ( 'NONE', ( #239 ) ) ;
#239 = ORIENTED_EDGE ( 'NONE', *, *, #123, .T. ) ;
#240 = AXIS2_PLACEMENT_3D ( 'NONE', #39, #139, #333 ) ;
#241 = DIRECTION ( 'NONE',  ( 0.0000000000000000000, 0.0000000000000000000, 1.000000000000000000 ) ) ;
#242 = EDGE_CURVE ( 'NONE', #64, #64, #128, .T. ) ;
#243 = VERTEX_POINT ( 'NONE', #108 ) ;
#244 = CIRCLE ( 'NONE', #185, 0.3109999999999999987 ) ;
#245 = FACE_BOUND ( 'NONE', #180, .T. ) ;
#246 = ORIENTED_EDGE ( 'NONE', *, *, #148, .T. ) ;
#247 = CARTESIAN_POINT ( 'NONE',  ( 0.2204999999999961990, 0.0000000000000000000, 0.0000000000000000000 ) ) ;
#248 = FACE_OUTER_BOUND ( 'NONE', #52, .T. ) ;
#249 = ORIENTED_EDGE ( 'NONE', *, *, #50, .T. ) ;
#250 = DIRECTION ( 'NONE',  ( -1.000000000000000000, 0.0000000000000000000, 0.0000000000000000000 ) ) ;
#251 = FACE_BOUND ( 'NONE', #182, .T. ) ;
#252 = AXIS2_PLACEMENT_3D ( 'NONE', #172, #146, #166 ) ;
#253 = EDGE_LOOP ( 'NONE', ( #249 ) ) ;
#254 = CALENDAR_DATE ( 2020, 28, 12 ) ;
#255 = CARTESIAN_POINT ( 'NONE',  ( 0.0000000000000000000, 0.0000000000000000000, 0.01000000000000303424 ) ) ;
#256 = CIRCLE ( 'NONE', #25, 0.2309999999999984288 ) ;
#257 = PERSON_AND_ORGANIZATION ( #204, #45 ) ;
#258 = DIRECTION ( 'NONE',  ( -0.0000000000000000000, -0.0000000000000000000, 1.000000000000000000 ) ) ;
#259 = APPROVAL_ROLE ( '' ) ;
#260 = PRODUCT ( '5720 LIQUID LIGHTGUIDE, INPUT END', '5720 LIQUID LIGHTGUIDE, INPUT END', '', ( #208 ) ) ;
#261 = APPROVAL_ROLE ( '' ) ;
#262 = CIRCLE ( 'NONE', #63, 0.2305000000000000382 ) ;
#263 = ORIENTED_EDGE ( 'NONE', *, *, #31, .T. ) ;
#264 = EDGE_LOOP ( 'NONE', ( #329 ) ) ;
#265 = APPLICATION_CONTEXT ( 'configuration controlled 3d designs of mechanical parts and assemblies' ) ;
#266 = ADVANCED_FACE ( 'NONE', ( #160, #89 ), #143, .T. ) ;
#267 =( GEOMETRIC_REPRESENTATION_CONTEXT ( 3 ) GLOBAL_UNCERTAINTY_ASSIGNED_CONTEXT ( ( #178 ) ) GLOBAL_UNIT_ASSIGNED_CONTEXT ( ( #156, #59, #269 ) ) REPRESENTATION_CONTEXT ( 'NONE', 'WORKASPACE' ) );
#268 = PLANE ( 'NONE',  #153 ) ;
#269 =( NAMED_UNIT ( * ) SI_UNIT ( $, .STERADIAN. ) SOLID_ANGLE_UNIT ( ) );
#270 = CC_DESIGN_APPROVAL ( #37, ( #279 ) ) ;
#271 = CARTESIAN_POINT ( 'NONE',  ( 0.0000000000000000000, 0.0000000000000000000, 5.955000000000002736 ) ) ;
#272 = DIRECTION ( 'NONE',  ( 0.0000000000000000000, 0.0000000000000000000, -1.000000000000000000 ) ) ;
#273 = CARTESIAN_POINT ( 'NONE',  ( 0.0000000000000000000, 0.0000000000000000000, 0.9649999999999999689 ) ) ;
#274 = CONICAL_SURFACE ( 'NONE', #56, 0.3109999999999999987, 0.7853981633974547183 ) ;
#275 = ORIENTED_EDGE ( 'NONE', *, *, #148, .F. ) ;
#276 = DIRECTION ( 'NONE',  ( -1.000000000000000000, 0.0000000000000000000, 0.0000000000000000000 ) ) ;
#277 = DIRECTION ( 'NONE',  ( 1.000000000000000000, 0.0000000000000000000, 0.0000000000000000000 ) ) ;
#278 = EDGE_LOOP ( 'NONE', ( #301 ) ) ;
#279 = PRODUCT_DEFINITION ( 'UNKNOWN', '', #237, #26 ) ;
#280 = DIRECTION ( 'NONE',  ( 1.000000000000000000, 0.0000000000000000000, 0.0000000000000000000 ) ) ;
#281 = PERSON_AND_ORGANIZATION ( #204, #45 ) ;
#282 = DIRECTION ( 'NONE',  ( 1.000000000000000000, 0.0000000000000000000, -0.0000000000000000000 ) ) ;
#283 = SHAPE_DEFINITION_REPRESENTATION ( #311, #4 ) ;
#284 = EDGE_CURVE ( 'NONE', #154, #154, #54, .T. ) ;
#285 = COORDINATED_UNIVERSAL_TIME_OFFSET ( 5, 0, .BEHIND. ) ;
#286 = EDGE_LOOP ( 'NONE', ( #275 ) ) ;
#287 = ORIENTED_EDGE ( 'NONE', *, *, #138, .T. ) ;
#288 = LOCAL_TIME ( 10, 30, 41.00000000000000000, #47 ) ;
#289 = AXIS2_PLACEMENT_3D ( 'NONE', #137, #66, #87 ) ;
#290 = CARTESIAN_POINT ( 'NONE',  ( -0.1870000000000000551, 0.0000000000000000000, 6.128508623988398796 ) ) ;
#291 = DIRECTION ( 'NONE',  ( -1.000000000000000000, 0.0000000000000000000, 9.828127972930715824E-17 ) ) ;
#292 = VERTEX_POINT ( 'NONE', #218 ) ;
#293 = DIRECTION ( 'NONE',  ( 1.000000000000000000, 0.0000000000000000000, 0.0000000000000000000 ) ) ;
#294 = VERTEX_POINT ( 'NONE', #290 ) ;
#295 = DIRECTION ( 'NONE',  ( -1.000000000000000000, 0.0000000000000000000, 0.0000000000000000000 ) ) ;
#296 = FACE_BOUND ( 'NONE', #278, .T. ) ;
#297 = EDGE_LOOP ( 'NONE', ( #53 ) ) ;
#298 = CARTESIAN_POINT ( 'NONE',  ( 0.0000000000000000000, 0.0000000000000000000, 0.01000000000000303424 ) ) ;
#299 = CARTESIAN_POINT ( 'NONE',  ( 0.0000000000000000000, 0.0000000000000000000, 0.0000000000000000000 ) ) ;
#300 = AXIS2_PLACEMENT_3D ( 'NONE', #191, #94, #113 ) ;
#301 = ORIENTED_EDGE ( 'NONE', *, *, #31, .F. ) ;
#302 = ADVANCED_FACE ( 'NONE', ( #206, #141 ), #310, .T. ) ;
#303 = PERSON_AND_ORGANIZATION ( #204, #45 ) ;
#304 = CARTESIAN_POINT ( 'NONE',  ( 2.048885995248197414E-16, 0.0000000000000000000, 1.750000000000000000 ) ) ;
#305 = PERSON_AND_ORGANIZATION ( #204, #45 ) ;
#306 = FACE_OUTER_BOUND ( 'NONE', #30, .T. ) ;
#307 = AXIS2_PLACEMENT_3D ( 'NONE', #322, #187, #276 ) ;
#308 = ORIENTED_EDGE ( 'NONE', *, *, #81, .F. ) ;
#309 = DATE_AND_TIME ( #67, #29 ) ;
#310 = CYLINDRICAL_SURFACE ( 'NONE', #76, 0.2305000000000000382 ) ;
#311 = PRODUCT_DEFINITION_SHAPE ( 'NONE', 'NONE',  #279 ) ;
#312 = CALENDAR_DATE ( 2020, 28, 12 ) ;
#313 = LOCAL_TIME ( 10, 30, 41.00000000000000000, #124 ) ;
#314 = ORIENTED_EDGE ( 'NONE', *, *, #209, .F. ) ;
#315 = ORIENTED_EDGE ( 'NONE', *, *, #123, .F. ) ;
#316 = AXIS2_PLACEMENT_3D ( 'NONE', #298, #41, #82 ) ;
#317 = EDGE_CURVE ( 'NONE', #88, #88, #186, .T. ) ;
#318 = AXIS2_PLACEMENT_3D ( 'NONE', #299, #117, #282 ) ;
#319 = FACE_BOUND ( 'NONE', #5, .T. ) ;
#320 = VERTEX_POINT ( 'NONE', #221 ) ;
#321 = DIRECTION ( 'NONE',  ( -9.828127972930715824E-17, 0.0000000000000000000, -1.000000000000000000 ) ) ;
#322 = CARTESIAN_POINT ( 'NONE',  ( 1.978638475411116064E-16, 0.0000000000000000000, 1.689999999999999725 ) ) ;
#323 = FACE_OUTER_BOUND ( 'NONE', #62, .T. ) ;
#324 = DIRECTION ( 'NONE',  ( -0.0000000000000000000, -0.0000000000000000000, 1.000000000000000000 ) ) ;
#325 = EDGE_LOOP ( 'NONE', ( #171 ) ) ;
#326 = APPROVAL_PERSON_ORGANIZATION ( #303, #37, #259 ) ;
#327 = DIRECTION ( 'NONE',  ( 1.000000000000000000, 0.0000000000000000000, 0.0000000000000000000 ) ) ;
#328 = ADVANCED_FACE ( 'NONE', ( #159, #195 ), #233, .T. ) ;
#329 = ORIENTED_EDGE ( 'NONE', *, *, #81, .T. ) ;
#330 = VERTEX_POINT ( 'NONE', #8 ) ;
#331 = DIRECTION ( 'NONE',  ( -0.0000000000000000000, -0.0000000000000000000, -1.000000000000000000 ) ) ;
#332 = DATE_AND_TIME ( #168, #313 ) ;
#333 = DIRECTION ( 'NONE',  ( 1.000000000000000000, 0.0000000000000000000, -0.0000000000000000000 ) ) ;
#334 = ADVANCED_FACE ( 'NONE', ( #319, #216 ), #132, .T. ) ;
#335 = APPROVAL_STATUS ( 'not_yet_approved' ) ;
#336 = DIRECTION ( 'NONE',  ( -0.0000000000000000000, -0.0000000000000000000, 1.000000000000000000 ) ) ;
#337 = AXIS2_PLACEMENT_3D ( 'NONE', #304, #224, #61 ) ;
#338 = PERSON_AND_ORGANIZATION ( #204, #45 ) ;
ENDSEC;
END-ISO-10303-21;
