ISO-10303-21;
HEADER;
FILE_DESCRIPTION (( 'STEP AP203' ),
    '1' );
FILE_NAME ('5720 LIQUID LIGHTGUIDE, 5MM X 1000.STEP',
    '2020-12-28T15:30:01',
    ( '' ),
    ( '' ),
    'SwSTEP 2.0',
    'SolidWorks 2019',
    '' );
FILE_SCHEMA (( 'CONFIG_CONTROL_DESIGN' ));
ENDSEC;

DATA;
#1 = DIRECTION ( 'NONE',  ( 1.000000000000000000, 0.0000000000000000000, -0.0000000000000000000 ) ) ;
#2 = SHAPE_DEFINITION_REPRESENTATION ( #266, #37 ) ;
#3 = CARTESIAN_POINT ( 'NONE',  ( 0.2305000000000000382, 0.0000000000000000000, 0.9649999999999999689 ) ) ;
#4 = PRODUCT_DEFINITION ( 'UNKNOWN', '', #233, #145 ) ;
#5 = ORIENTED_EDGE ( 'NONE', *, *, #158, .T. ) ;
#6 = LOCAL_TIME ( 10, 30, 1.000000000000000000, #378 ) ;
#7 = CALENDAR_DATE ( 2020, 28, 12 ) ;
#8 = DIRECTION ( 'NONE',  ( 0.0000000000000000000, 0.0000000000000000000, 1.000000000000000000 ) ) ;
#9 = CARTESIAN_POINT ( 'NONE',  ( 0.0000000000000000000, 0.0000000000000000000, 0.01000000000000303424 ) ) ;
#10 =( GEOMETRIC_REPRESENTATION_CONTEXT ( 3 ) GLOBAL_UNCERTAINTY_ASSIGNED_CONTEXT ( ( #328 ) ) GLOBAL_UNIT_ASSIGNED_CONTEXT ( ( #80, #115, #85 ) ) REPRESENTATION_CONTEXT ( 'NONE', 'WORKASPACE' ) );
#11 = APPROVAL ( #98, 'UNSPECIFIED' ) ;
#12 = DIRECTION ( 'NONE',  ( -1.000000000000000000, 0.0000000000000000000, 0.0000000000000000000 ) ) ;
#13 = CARTESIAN_POINT ( 'NONE',  ( 0.2309999999999984288, 0.0000000000000000000, 0.9649999999999999689 ) ) ;
#14 = ORIENTED_EDGE ( 'NONE', *, *, #269, .F. ) ;
#15 = CIRCLE ( 'NONE', #385, 0.3109999999999997211 ) ;
#16 = ORGANIZATION ( 'UNSPECIFIED', 'UNSPECIFIED', '' ) ;
#17 = ORIENTED_EDGE ( 'NONE', *, *, #222, .T. ) ;
#18 = DIRECTION ( 'NONE',  ( -1.170791997284684236E-16, -0.0000000000000000000, -1.000000000000000000 ) ) ;
#19 = ORIENTED_EDGE ( 'NONE', *, *, #250, .T. ) ;
#20 = ADVANCED_FACE ( 'NONE', ( #136 ), #255, .F. ) ;
#21 = DIRECTION ( 'NONE',  ( 1.000000000000000000, 0.0000000000000000000, 0.0000000000000000000 ) ) ;
#22 = CIRCLE ( 'NONE', #364, 0.1375000000000000111 ) ;
#23 = APPROVAL_STATUS ( 'not_yet_approved' ) ;
#24 = MECHANICAL_CONTEXT ( 'NONE', #66, 'mechanical' ) ;
#25 = DIRECTION ( 'NONE',  ( -1.000000000000000000, 0.0000000000000000000, 0.0000000000000000000 ) ) ;
#26 = ORIENTED_EDGE ( 'NONE', *, *, #354, .T. ) ;
#27 = ADVANCED_FACE ( 'NONE', ( #168, #312 ), #187, .T. ) ;
#28 = DIMENSIONAL_EXPONENTS ( 1.000000000000000000, 0.0000000000000000000, 0.0000000000000000000, 0.0000000000000000000, 0.0000000000000000000, 0.0000000000000000000, 0.0000000000000000000 ) ;
#29 = DATE_AND_TIME ( #157, #40 ) ;
#30 = DIRECTION ( 'NONE',  ( 0.0000000000000000000, 0.0000000000000000000, 1.000000000000000000 ) ) ;
#31 = FACE_OUTER_BOUND ( 'NONE', #339, .T. ) ;
#32 = APPROVAL_DATE_TIME ( #201, #387 ) ;
#33 = VERTEX_POINT ( 'NONE', #97 ) ;
#34 = DIRECTION ( 'NONE',  ( 1.000000000000000000, 0.0000000000000000000, 0.0000000000000000000 ) ) ;
#35 = ADVANCED_FACE ( 'NONE', ( #31, #383 ), #247, .T. ) ;
#36 = VERTEX_POINT ( 'NONE', #167 ) ;
#37 = ADVANCED_BREP_SHAPE_REPRESENTATION ( '5720 LIQUID LIGHTGUIDE, 5MM X 1000', ( #258, #114 ), #10 ) ;
#38 = DIRECTION ( 'NONE',  ( 0.0000000000000000000, 0.0000000000000000000, 1.000000000000000000 ) ) ;
#39 = DIRECTION ( 'NONE',  ( -1.000000000000000000, 0.0000000000000000000, 0.0000000000000000000 ) ) ;
#40 = LOCAL_TIME ( 10, 30, 1.000000000000000000, #337 ) ;
#41 = APPROVAL_STATUS ( 'not_yet_approved' ) ;
#42 = FACE_OUTER_BOUND ( 'NONE', #315, .T. ) ;
#43 = EDGE_CURVE ( 'NONE', #33, #33, #351, .T. ) ;
#44 = DIRECTION ( 'NONE',  ( -0.0000000000000000000, -0.0000000000000000000, -1.000000000000000000 ) ) ;
#45 = CIRCLE ( 'NONE', #132, 0.3109999999999997766 ) ;
#46 = CIRCLE ( 'NONE', #279, 0.2800000000000000266 ) ;
#47 = DIRECTION ( 'NONE',  ( 1.000000000000000000, 0.0000000000000000000, -0.0000000000000000000 ) ) ;
#48 = EDGE_LOOP ( 'NONE', ( #349 ) ) ;
#49 = DIRECTION ( 'NONE',  ( 1.000000000000000000, 0.0000000000000000000, -0.0000000000000000000 ) ) ;
#50 = AXIS2_PLACEMENT_3D ( 'NONE', #389, #105, #109 ) ;
#51 = ORIENTED_EDGE ( 'NONE', *, *, #406, .T. ) ;
#52 = VERTEX_POINT ( 'NONE', #334 ) ;
#53 = EDGE_LOOP ( 'NONE', ( #164 ) ) ;
#54 = ADVANCED_FACE ( 'NONE', ( #386, #377 ), #64, .F. ) ;
#55 = CARTESIAN_POINT ( 'NONE',  ( 0.0000000000000000000, 0.0000000000000000000, 39.37991338582676804 ) ) ;
#56 = EDGE_LOOP ( 'NONE', ( #280 ) ) ;
#57 = CONICAL_SURFACE ( 'NONE', #374, 0.2305000000000000382, 0.7853981633974892462 ) ;
#58 = APPROVAL_PERSON_ORGANIZATION ( #62, #11, #346 ) ;
#59 = SECURITY_CLASSIFICATION_LEVEL ( 'unclassified' ) ;
#60 = CARTESIAN_POINT ( 'NONE',  ( 0.0000000000000000000, 0.0000000000000000000, 5.965000000000000746 ) ) ;
#61 = EDGE_LOOP ( 'NONE', ( #5 ) ) ;
#62 = PERSON_AND_ORGANIZATION ( #313, #16 ) ;
#63 = ADVANCED_FACE ( 'NONE', ( #42, #72 ), #412, .T. ) ;
#64 = PLANE ( 'NONE',  #217 ) ;
#65 = CARTESIAN_POINT ( 'NONE',  ( 1.978638475411116064E-16, 0.0000000000000000000, 1.689999999999999725 ) ) ;
#66 = APPLICATION_CONTEXT ( 'configuration controlled 3d designs of mechanical parts and assemblies' ) ;
#67 = AXIS2_PLACEMENT_3D ( 'NONE', #256, #193, #408 ) ;
#68 = DIRECTION ( 'NONE',  ( -0.0000000000000000000, -0.0000000000000000000, -1.000000000000000000 ) ) ;
#69 = DIRECTION ( 'NONE',  ( 0.0000000000000000000, 0.0000000000000000000, 1.000000000000000000 ) ) ;
#70 = EDGE_CURVE ( 'NONE', #189, #189, #342, .T. ) ;
#71 = CARTESIAN_POINT ( 'NONE',  ( 0.0000000000000000000, 0.0000000000000000000, 0.0000000000000000000 ) ) ;
#72 = FACE_BOUND ( 'NONE', #149, .T. ) ;
#73 = APPROVAL_ROLE ( '' ) ;
#74 = CIRCLE ( 'NONE', #329, 0.2305000000000000382 ) ;
#75 = CIRCLE ( 'NONE', #405, 0.2309999999999984288 ) ;
#76 = FACE_OUTER_BOUND ( 'NONE', #221, .T. ) ;
#77 = CYLINDRICAL_SURFACE ( 'NONE', #50, 0.1870000000000000551 ) ;
#78 = CARTESIAN_POINT ( 'NONE',  ( 0.0000000000000000000, 0.0000000000000000000, 38.59291338582676900 ) ) ;
#79 = ADVANCED_FACE ( 'NONE', ( #173, #293 ), #77, .T. ) ;
#80 =( CONVERSION_BASED_UNIT ( 'INCH', #365 ) LENGTH_UNIT ( ) NAMED_UNIT ( #28 ) );
#81 = PLANE ( 'NONE',  #404 ) ;
#82 = EDGE_LOOP ( 'NONE', ( #17 ) ) ;
#83 =( LENGTH_UNIT ( ) NAMED_UNIT ( * ) SI_UNIT ( $, .METRE. ) );
#84 = DIRECTION ( 'NONE',  ( 1.000000000000000000, 0.0000000000000000000, 0.0000000000000000000 ) ) ;
#85 =( NAMED_UNIT ( * ) SI_UNIT ( $, .STERADIAN. ) SOLID_ANGLE_UNIT ( ) );
#86 = DIRECTION ( 'NONE',  ( 0.0000000000000000000, 0.0000000000000000000, 1.000000000000000000 ) ) ;
#87 = ORIENTED_EDGE ( 'NONE', *, *, #354, .F. ) ;
#88 = AXIS2_PLACEMENT_3D ( 'NONE', #55, #240, #395 ) ;
#89 = FACE_OUTER_BOUND ( 'NONE', #285, .T. ) ;
#90 = ADVANCED_FACE ( 'NONE', ( #229, #263 ), #57, .T. ) ;
#91 = COORDINATED_UNIVERSAL_TIME_OFFSET ( 5, 0, .BEHIND. ) ;
#92 = CARTESIAN_POINT ( 'NONE',  ( 2.119133515085278517E-16, 0.0000000000000000000, 1.809999999999999831 ) ) ;
#93 = DIRECTION ( 'NONE',  ( 1.000000000000000000, 0.0000000000000000000, 0.0000000000000000000 ) ) ;
#94 = EDGE_LOOP ( 'NONE', ( #347 ) ) ;
#95 = ADVANCED_FACE ( 'NONE', ( #76 ), #392, .T. ) ;
#96 = LOCAL_TIME ( 10, 30, 1.000000000000000000, #191 ) ;
#97 = CARTESIAN_POINT ( 'NONE',  ( 0.2305000000000000382, 0.0000000000000000000, 0.01000000000000303424 ) ) ;
#98 = APPROVAL_STATUS ( 'not_yet_approved' ) ;
#99 = DIRECTION ( 'NONE',  ( -0.0000000000000000000, -0.0000000000000000000, -1.000000000000000000 ) ) ;
#100 = DIRECTION ( 'NONE',  ( 1.000000000000000000, 0.0000000000000000000, 0.0000000000000000000 ) ) ;
#101 = DIRECTION ( 'NONE',  ( -1.170791997284684236E-16, -0.0000000000000000000, -1.000000000000000000 ) ) ;
#102 = CC_DESIGN_PERSON_AND_ORGANIZATION_ASSIGNMENT ( #137, #348, ( #4 ) ) ;
#103 = EDGE_LOOP ( 'NONE', ( #178 ) ) ;
#104 = DIRECTION ( 'NONE',  ( -1.000000000000000000, 0.0000000000000000000, 0.0000000000000000000 ) ) ;
#105 = DIRECTION ( 'NONE',  ( -0.0000000000000000000, -0.0000000000000000000, -1.000000000000000000 ) ) ;
#106 = PRODUCT_RELATED_PRODUCT_CATEGORY ( 'detail', '', ( #208 ) ) ;
#107 = AXIS2_PLACEMENT_3D ( 'NONE', #71, #38, #253 ) ;
#108 = DIRECTION ( 'NONE',  ( -0.0000000000000000000, -0.0000000000000000000, 1.000000000000000000 ) ) ;
#109 = DIRECTION ( 'NONE',  ( -1.000000000000000000, 0.0000000000000000000, 0.0000000000000000000 ) ) ;
#110 = CARTESIAN_POINT ( 'NONE',  ( -0.3109999999999994991, 0.0000000000000000000, 1.689999999999999725 ) ) ;
#111 = DIRECTION ( 'NONE',  ( 1.000000000000000000, 0.0000000000000000000, 0.0000000000000000000 ) ) ;
#112 = EDGE_CURVE ( 'NONE', #410, #410, #22, .T. ) ;
#113 = CARTESIAN_POINT ( 'NONE',  ( 0.1375000000000000111, 0.0000000000000000000, 39.37991338582676804 ) ) ;
#114 = AXIS2_PLACEMENT_3D ( 'NONE', #183, #185, #100 ) ;
#115 =( NAMED_UNIT ( * ) PLANE_ANGLE_UNIT ( ) SI_UNIT ( $, .RADIAN. ) );
#116 = PLANE ( 'NONE',  #172 ) ;
#117 = ORIENTED_EDGE ( 'NONE', *, *, #70, .T. ) ;
#118 = VERTEX_POINT ( 'NONE', #360 ) ;
#119 = FACE_OUTER_BOUND ( 'NONE', #287, .T. ) ;
#120 = ORIENTED_EDGE ( 'NONE', *, *, #265, .F. ) ;
#121 = ADVANCED_FACE ( 'NONE', ( #141, #230 ), #291, .T. ) ;
#122 = CARTESIAN_POINT ( 'NONE',  ( 0.0000000000000000000, 0.0000000000000000000, 5.955000000000002736 ) ) ;
#123 = EDGE_LOOP ( 'NONE', ( #14 ) ) ;
#124 = CLOSED_SHELL ( 'NONE', ( #35, #415, #306, #20, #165, #90, #170, #27, #399, #79, #292, #63, #356, #54, #324, #121, #95 ) ) ;
#125 = CYLINDRICAL_SURFACE ( 'NONE', #227, 0.2305000000000000382 ) ;
#126 = EDGE_LOOP ( 'NONE', ( #401 ) ) ;
#127 = PERSON_AND_ORGANIZATION ( #313, #16 ) ;
#128 = CARTESIAN_POINT ( 'NONE',  ( 0.0000000000000000000, 0.0000000000000000000, 37.64291338582677326 ) ) ;
#129 = EDGE_LOOP ( 'NONE', ( #139 ) ) ;
#130 = APPROVAL_ROLE ( '' ) ;
#131 = ORIENTED_EDGE ( 'NONE', *, *, #43, .F. ) ;
#132 = AXIS2_PLACEMENT_3D ( 'NONE', #92, #210, #104 ) ;
#133 = LOCAL_TIME ( 10, 30, 1.000000000000000000, #91 ) ;
#134 = CALENDAR_DATE ( 2020, 28, 12 ) ;
#135 = CARTESIAN_POINT ( 'NONE',  ( 0.0000000000000000000, 0.0000000000000000000, 38.59291338582676900 ) ) ;
#136 = FACE_OUTER_BOUND ( 'NONE', #414, .T. ) ;
#137 = PERSON_AND_ORGANIZATION ( #313, #16 ) ;
#138 = FACE_OUTER_BOUND ( 'NONE', #56, .T. ) ;
#139 = ORIENTED_EDGE ( 'NONE', *, *, #381, .T. ) ;
#140 = PERSON_AND_ORGANIZATION ( #313, #16 ) ;
#141 = FACE_OUTER_BOUND ( 'NONE', #123, .T. ) ;
#142 = EDGE_CURVE ( 'NONE', #36, #36, #169, .T. ) ;
#143 = CARTESIAN_POINT ( 'NONE',  ( 0.1970000000000000084, 0.0000000000000000000, 37.64291338582677326 ) ) ;
#144 = CARTESIAN_POINT ( 'NONE',  ( 0.0000000000000000000, 0.0000000000000000000, 39.37991338582676804 ) ) ;
#145 = DESIGN_CONTEXT ( 'detailed design', #237, 'design' ) ;
#146 = CARTESIAN_POINT ( 'NONE',  ( 1.978638475411116064E-16, 0.0000000000000000000, 1.689999999999999725 ) ) ;
#147 = FACE_BOUND ( 'NONE', #182, .T. ) ;
#148 = AXIS2_PLACEMENT_3D ( 'NONE', #122, #268, #21 ) ;
#149 = EDGE_LOOP ( 'NONE', ( #87 ) ) ;
#150 = CARTESIAN_POINT ( 'NONE',  ( 0.1870000000000000551, 0.0000000000000000000, 37.64291338582677326 ) ) ;
#151 = FACE_BOUND ( 'NONE', #61, .T. ) ;
#152 = ORIENTED_EDGE ( 'NONE', *, *, #332, .F. ) ;
#153 = EDGE_LOOP ( 'NONE', ( #51 ) ) ;
#154 = DIRECTION ( 'NONE',  ( -1.000000000000000000, 0.0000000000000000000, 0.0000000000000000000 ) ) ;
#155 = EDGE_LOOP ( 'NONE', ( #213 ) ) ;
#156 = AXIS2_PLACEMENT_3D ( 'NONE', #144, #297, #295 ) ;
#157 = CALENDAR_DATE ( 2020, 28, 12 ) ;
#158 = EDGE_CURVE ( 'NONE', #288, #288, #74, .T. ) ;
#159 = DIRECTION ( 'NONE',  ( -1.000000000000000000, 0.0000000000000000000, 0.0000000000000000000 ) ) ;
#160 = CARTESIAN_POINT ( 'NONE',  ( 0.2204999999999961990, 0.0000000000000000000, 0.0000000000000000000 ) ) ;
#161 = ORIENTED_EDGE ( 'NONE', *, *, #332, .T. ) ;
#162 = CC_DESIGN_APPROVAL ( #11, ( #233 ) ) ;
#163 = FACE_OUTER_BOUND ( 'NONE', #48, .T. ) ;
#164 = ORIENTED_EDGE ( 'NONE', *, *, #406, .F. ) ;
#165 = ADVANCED_FACE ( 'NONE', ( #361, #151 ), #116, .F. ) ;
#166 = DIRECTION ( 'NONE',  ( 1.000000000000000000, 0.0000000000000000000, 0.0000000000000000000 ) ) ;
#167 = CARTESIAN_POINT ( 'NONE',  ( 0.3109999999999999987, 0.0000000000000000000, 1.045000000000000373 ) ) ;
#168 = FACE_BOUND ( 'NONE', #153, .T. ) ;
#169 = CIRCLE ( 'NONE', #171, 0.3109999999999999987 ) ;
#170 = ADVANCED_FACE ( 'NONE', ( #147, #310 ), #300, .T. ) ;
#171 = AXIS2_PLACEMENT_3D ( 'NONE', #267, #394, #111 ) ;
#172 = AXIS2_PLACEMENT_3D ( 'NONE', #304, #86, #49 ) ;
#173 = FACE_OUTER_BOUND ( 'NONE', #275, .T. ) ;
#174 = AXIS2_PLACEMENT_3D ( 'NONE', #228, #254, #93 ) ;
#175 = DIRECTION ( 'NONE',  ( -0.0000000000000000000, -0.0000000000000000000, -1.000000000000000000 ) ) ;
#176 = VERTEX_POINT ( 'NONE', #402 ) ;
#177 = DIRECTION ( 'NONE',  ( -1.000000000000000000, 0.0000000000000000000, 0.0000000000000000000 ) ) ;
#178 = ORIENTED_EDGE ( 'NONE', *, *, #381, .F. ) ;
#179 = FACE_OUTER_BOUND ( 'NONE', #363, .T. ) ;
#180 = AXIS2_PLACEMENT_3D ( 'NONE', #350, #69, #1 ) ;
#181 = CC_DESIGN_DATE_AND_TIME_ASSIGNMENT ( #283, #251, ( #271 ) ) ;
#182 = EDGE_LOOP ( 'NONE', ( #418 ) ) ;
#183 = CARTESIAN_POINT ( 'NONE',  ( 0.0000000000000000000, 0.0000000000000000000, 0.0000000000000000000 ) ) ;
#184 = DIRECTION ( 'NONE',  ( -0.0000000000000000000, -0.0000000000000000000, -1.000000000000000000 ) ) ;
#185 = DIRECTION ( 'NONE',  ( 0.0000000000000000000, 0.0000000000000000000, 1.000000000000000000 ) ) ;
#186 = EDGE_LOOP ( 'NONE', ( #398 ) ) ;
#187 = CONICAL_SURFACE ( 'NONE', #284, 0.3109999999999997211, 0.4768918676655297673 ) ;
#188 = PERSON_AND_ORGANIZATION ( #313, #16 ) ;
#189 = VERTEX_POINT ( 'NONE', #160 ) ;
#190 = EDGE_LOOP ( 'NONE', ( #303 ) ) ;
#191 = COORDINATED_UNIVERSAL_TIME_OFFSET ( 5, 0, .BEHIND. ) ;
#192 = DATE_AND_TIME ( #214, #133 ) ;
#193 = DIRECTION ( 'NONE',  ( 0.0000000000000000000, 0.0000000000000000000, 1.000000000000000000 ) ) ;
#194 = ORIENTED_EDGE ( 'NONE', *, *, #158, .F. ) ;
#195 = CC_DESIGN_PERSON_AND_ORGANIZATION_ASSIGNMENT ( #370, #416, ( #233 ) ) ;
#196 = AXIS2_PLACEMENT_3D ( 'NONE', #128, #30, #252 ) ;
#197 = DIRECTION ( 'NONE',  ( -1.000000000000000000, 0.0000000000000000000, 0.0000000000000000000 ) ) ;
#198 = CARTESIAN_POINT ( 'NONE',  ( 0.0000000000000000000, 0.0000000000000000000, 0.01000000000000303424 ) ) ;
#199 = CC_DESIGN_PERSON_AND_ORGANIZATION_ASSIGNMENT ( #224, #341, ( #233 ) ) ;
#200 = AXIS2_PLACEMENT_3D ( 'NONE', #308, #272, #154 ) ;
#201 = DATE_AND_TIME ( #7, #249 ) ;
#202 = AXIS2_PLACEMENT_3D ( 'NONE', #135, #220, #166 ) ;
#203 = DIRECTION ( 'NONE',  ( 0.0000000000000000000, 0.0000000000000000000, 1.000000000000000000 ) ) ;
#204 = DIRECTION ( 'NONE',  ( 1.000000000000000000, 0.0000000000000000000, 0.0000000000000000000 ) ) ;
#205 = DIRECTION ( 'NONE',  ( 0.0000000000000000000, 0.0000000000000000000, -1.000000000000000000 ) ) ;
#206 = CIRCLE ( 'NONE', #202, 0.1970000000000000084 ) ;
#207 = VERTEX_POINT ( 'NONE', #400 ) ;
#208 = PRODUCT ( '5720 LIQUID LIGHTGUIDE, 5MM X 1000', '5720 LIQUID LIGHTGUIDE, 5MM X 1000', '', ( #24 ) ) ;
#209 = DIRECTION ( 'NONE',  ( 0.0000000000000000000, 0.0000000000000000000, 1.000000000000000000 ) ) ;
#210 = DIRECTION ( 'NONE',  ( -1.170791997284684236E-16, -0.0000000000000000000, -1.000000000000000000 ) ) ;
#211 = EDGE_LOOP ( 'NONE', ( #305 ) ) ;
#212 = CIRCLE ( 'NONE', #148, 0.3109999999999999987 ) ;
#213 = ORIENTED_EDGE ( 'NONE', *, *, #112, .T. ) ;
#214 = CALENDAR_DATE ( 2020, 28, 12 ) ;
#215 = DIRECTION ( 'NONE',  ( 0.0000000000000000000, 0.0000000000000000000, 1.000000000000000000 ) ) ;
#216 = APPROVAL_DATE_TIME ( #29, #11 ) ;
#217 = AXIS2_PLACEMENT_3D ( 'NONE', #314, #203, #261 ) ;
#218 = APPROVAL_PERSON_ORGANIZATION ( #244, #257, #130 ) ;
#219 = DATE_AND_TIME ( #281, #6 ) ;
#220 = DIRECTION ( 'NONE',  ( 0.0000000000000000000, 0.0000000000000000000, 1.000000000000000000 ) ) ;
#221 = EDGE_LOOP ( 'NONE', ( #372 ) ) ;
#222 = EDGE_CURVE ( 'NONE', #327, #327, #15, .T. ) ;
#223 = CARTESIAN_POINT ( 'NONE',  ( 0.0000000000000000000, 0.0000000000000000000, 5.965000000000000746 ) ) ;
#224 = PERSON_AND_ORGANIZATION ( #313, #16 ) ;
#225 = DIRECTION ( 'NONE',  ( -0.0000000000000000000, -0.0000000000000000000, -1.000000000000000000 ) ) ;
#226 = ORIENTED_EDGE ( 'NONE', *, *, #369, .F. ) ;
#227 = AXIS2_PLACEMENT_3D ( 'NONE', #366, #184, #177 ) ;
#228 = CARTESIAN_POINT ( 'NONE',  ( 2.048885995248197414E-16, 0.0000000000000000000, 1.750000000000000000 ) ) ;
#229 = FACE_BOUND ( 'NONE', #353, .T. ) ;
#230 = FACE_OUTER_BOUND ( 'NONE', #155, .T. ) ;
#231 = AXIS2_PLACEMENT_3D ( 'NONE', #388, #205, #39 ) ;
#232 = CARTESIAN_POINT ( 'NONE',  ( -0.3109999999999995546, 0.0000000000000000000, 1.809999999999999831 ) ) ;
#233 = PRODUCT_DEFINITION_FORMATION_WITH_SPECIFIED_SOURCE ( 'ANY', '', #208, .NOT_KNOWN. ) ;
#234 = CARTESIAN_POINT ( 'NONE',  ( 0.0000000000000000000, 0.0000000000000000000, 5.965000000000000746 ) ) ;
#235 = FACE_OUTER_BOUND ( 'NONE', #243, .T. ) ;
#236 = ORIENTED_EDGE ( 'NONE', *, *, #250, .F. ) ;
#237 = APPLICATION_CONTEXT ( 'configuration controlled 3d designs of mechanical parts and assemblies' ) ;
#238 = FACE_BOUND ( 'NONE', #345, .T. ) ;
#239 = EDGE_LOOP ( 'NONE', ( #226 ) ) ;
#240 = DIRECTION ( 'NONE',  ( 0.0000000000000000000, 0.0000000000000000000, 1.000000000000000000 ) ) ;
#241 = CIRCLE ( 'NONE', #67, 0.3010000000000009890 ) ;
#242 = AXIS2_PLACEMENT_3D ( 'NONE', #223, #225, #159 ) ;
#243 = EDGE_LOOP ( 'NONE', ( #282 ) ) ;
#244 = PERSON_AND_ORGANIZATION ( #313, #16 ) ;
#245 = DIRECTION ( 'NONE',  ( 1.000000000000000000, 0.0000000000000000000, 0.0000000000000000000 ) ) ;
#246 = CARTESIAN_POINT ( 'NONE',  ( 0.1375000000000000111, 0.0000000000000000000, 38.59291338582676900 ) ) ;
#247 = PLANE ( 'NONE',  #180 ) ;
#248 = CIRCLE ( 'NONE', #294, 0.1970000000000000084 ) ;
#249 = LOCAL_TIME ( 10, 30, 1.000000000000000000, #262 ) ;
#250 = EDGE_CURVE ( 'NONE', #52, #52, #396, .T. ) ;
#251 = DATE_TIME_ROLE ( 'classification_date' ) ;
#252 = DIRECTION ( 'NONE',  ( 1.000000000000000000, 0.0000000000000000000, 0.0000000000000000000 ) ) ;
#253 = DIRECTION ( 'NONE',  ( 1.000000000000000000, 0.0000000000000000000, -0.0000000000000000000 ) ) ;
#254 = DIRECTION ( 'NONE',  ( 1.170791997284684236E-16, 0.0000000000000000000, 1.000000000000000000 ) ) ;
#255 = PLANE ( 'NONE',  #107 ) ;
#256 = CARTESIAN_POINT ( 'NONE',  ( 0.0000000000000000000, 0.0000000000000000000, 5.965000000000000746 ) ) ;
#257 = APPROVAL ( #23, 'UNSPECIFIED' ) ;
#258 = MANIFOLD_SOLID_BREP ( 'Boss-Extrude5', #124 ) ;
#259 = DIRECTION ( 'NONE',  ( -1.170791997284684236E-16, -0.0000000000000000000, -1.000000000000000000 ) ) ;
#260 = AXIS2_PLACEMENT_3D ( 'NONE', #403, #397, #245 ) ;
#261 = DIRECTION ( 'NONE',  ( 1.000000000000000000, 0.0000000000000000000, -0.0000000000000000000 ) ) ;
#262 = COORDINATED_UNIVERSAL_TIME_OFFSET ( 5, 0, .BEHIND. ) ;
#263 = FACE_OUTER_BOUND ( 'NONE', #277, .T. ) ;
#264 = CIRCLE ( 'NONE', #88, 0.1375000000000000111 ) ;
#265 = EDGE_CURVE ( 'NONE', #207, #207, #212, .T. ) ;
#266 = PRODUCT_DEFINITION_SHAPE ( 'NONE', 'NONE',  #4 ) ;
#267 = CARTESIAN_POINT ( 'NONE',  ( 0.0000000000000000000, 0.0000000000000000000, 1.045000000000000373 ) ) ;
#268 = DIRECTION ( 'NONE',  ( 0.0000000000000000000, 0.0000000000000000000, -1.000000000000000000 ) ) ;
#269 = EDGE_CURVE ( 'NONE', #326, #326, #264, .T. ) ;
#270 = AXIS2_PLACEMENT_3D ( 'NONE', #319, #175, #290 ) ;
#271 = SECURITY_CLASSIFICATION ( '', '', #59 ) ;
#272 = DIRECTION ( 'NONE',  ( -0.0000000000000000000, -0.0000000000000000000, -1.000000000000000000 ) ) ;
#273 = EDGE_LOOP ( 'NONE', ( #152 ) ) ;
#274 = DIRECTION ( 'NONE',  ( 1.000000000000000000, 0.0000000000000000000, 0.0000000000000000000 ) ) ;
#275 = EDGE_LOOP ( 'NONE', ( #19 ) ) ;
#276 = VERTEX_POINT ( 'NONE', #143 ) ;
#277 = EDGE_LOOP ( 'NONE', ( #131 ) ) ;
#278 = PERSON_AND_ORGANIZATION_ROLE ( 'design_owner' ) ;
#279 = AXIS2_PLACEMENT_3D ( 'NONE', #382, #101, #25 ) ;
#280 = ORIENTED_EDGE ( 'NONE', *, *, #340, .F. ) ;
#281 = CALENDAR_DATE ( 2020, 28, 12 ) ;
#282 = ORIENTED_EDGE ( 'NONE', *, *, #43, .T. ) ;
#283 = DATE_AND_TIME ( #134, #96 ) ;
#284 = AXIS2_PLACEMENT_3D ( 'NONE', #65, #259, #411 ) ;
#285 = EDGE_LOOP ( 'NONE', ( #161 ) ) ;
#286 = CC_DESIGN_DATE_AND_TIME_ASSIGNMENT ( #192, #373, ( #4 ) ) ;
#287 = EDGE_LOOP ( 'NONE', ( #26 ) ) ;
#288 = VERTEX_POINT ( 'NONE', #3 ) ;
#289 = AXIS2_PLACEMENT_3D ( 'NONE', #322, #44, #12 ) ;
#290 = DIRECTION ( 'NONE',  ( 1.000000000000000000, 0.0000000000000000000, 0.0000000000000000000 ) ) ;
#291 = CYLINDRICAL_SURFACE ( 'NONE', #289, 0.1375000000000000111 ) ;
#292 = ADVANCED_FACE ( 'NONE', ( #119, #238 ), #81, .T. ) ;
#293 = FACE_OUTER_BOUND ( 'NONE', #103, .T. ) ;
#294 = AXIS2_PLACEMENT_3D ( 'NONE', #362, #368, #84 ) ;
#295 = DIRECTION ( 'NONE',  ( 1.000000000000000000, 0.0000000000000000000, -0.0000000000000000000 ) ) ;
#296 = CARTESIAN_POINT ( 'NONE',  ( 0.3010000000000009890, 0.0000000000000000000, 5.965000000000000746 ) ) ;
#297 = DIRECTION ( 'NONE',  ( 0.0000000000000000000, 0.0000000000000000000, 1.000000000000000000 ) ) ;
#298 = VERTEX_POINT ( 'NONE', #13 ) ;
#299 = FACE_OUTER_BOUND ( 'NONE', #239, .T. ) ;
#300 = CONICAL_SURFACE ( 'NONE', #390, 0.3109999999999999987, 0.7853981633974547183 ) ;
#301 = VERTEX_POINT ( 'NONE', #232 ) ;
#302 = DIRECTION ( 'NONE',  ( 1.000000000000000000, 0.0000000000000000000, 0.0000000000000000000 ) ) ;
#303 = ORIENTED_EDGE ( 'NONE', *, *, #142, .F. ) ;
#304 = CARTESIAN_POINT ( 'NONE',  ( 0.0000000000000000000, 0.0000000000000000000, 0.9649999999999999689 ) ) ;
#305 = ORIENTED_EDGE ( 'NONE', *, *, #142, .T. ) ;
#306 = ADVANCED_FACE ( 'NONE', ( #235, #179 ), #125, .T. ) ;
#307 = VERTEX_POINT ( 'NONE', #150 ) ;
#308 = CARTESIAN_POINT ( 'NONE',  ( 0.0000000000000000000, 0.0000000000000000000, 38.59291338582676900 ) ) ;
#309 = APPLICATION_PROTOCOL_DEFINITION ( 'international standard', 'config_control_design', 1994, #237 ) ;
#310 = FACE_OUTER_BOUND ( 'NONE', #190, .T. ) ;
#311 = PERSON_AND_ORGANIZATION_ROLE ( 'classification_officer' ) ;
#312 = FACE_OUTER_BOUND ( 'NONE', #126, .T. ) ;
#313 = PERSON ( 'UNSPECIFIED', 'UNSPECIFIED', 'UNSPECIFIED', ('UNSPECIFIED'), ('UNSPECIFIED'), ('UNSPECIFIED') ) ;
#314 = CARTESIAN_POINT ( 'NONE',  ( 0.0000000000000000000, 0.0000000000000000000, 37.64291338582677326 ) ) ;
#315 = EDGE_LOOP ( 'NONE', ( #120 ) ) ;
#316 = CIRCLE ( 'NONE', #196, 0.1870000000000000551 ) ;
#317 = FACE_OUTER_BOUND ( 'NONE', #211, .T. ) ;
#318 = DIRECTION ( 'NONE',  ( -0.0000000000000000000, -0.0000000000000000000, 1.000000000000000000 ) ) ;
#319 = CARTESIAN_POINT ( 'NONE',  ( 0.0000000000000000000, 0.0000000000000000000, 0.0000000000000000000 ) ) ;
#320 = AXIS2_PLACEMENT_3D ( 'NONE', #60, #68, #197 ) ;
#321 = CC_DESIGN_PERSON_AND_ORGANIZATION_ASSIGNMENT ( #127, #278, ( #208 ) ) ;
#322 = CARTESIAN_POINT ( 'NONE',  ( 0.0000000000000000000, 0.0000000000000000000, 39.37991338582676804 ) ) ;
#323 = AXIS2_PLACEMENT_3D ( 'NONE', #198, #318, #34 ) ;
#324 = ADVANCED_FACE ( 'NONE', ( #299, #89 ), #335, .T. ) ;
#325 = CARTESIAN_POINT ( 'NONE',  ( 0.0000000000000000000, 0.0000000000000000000, 0.9649999999999999689 ) ) ;
#326 = VERTEX_POINT ( 'NONE', #113 ) ;
#327 = VERTEX_POINT ( 'NONE', #110 ) ;
#328 = UNCERTAINTY_MEASURE_WITH_UNIT (LENGTH_MEASURE( 1.000000000000000082E-05 ), #80, 'distance_accuracy_value', 'NONE');
#329 = AXIS2_PLACEMENT_3D ( 'NONE', #325, #215, #302 ) ;
#330 = APPLICATION_PROTOCOL_DEFINITION ( 'international standard', 'config_control_design', 1994, #66 ) ;
#331 = DIRECTION ( 'NONE',  ( -1.000000000000000000, 0.0000000000000000000, 0.0000000000000000000 ) ) ;
#332 = EDGE_CURVE ( 'NONE', #276, #276, #248, .T. ) ;
#333 = ORIENTED_EDGE ( 'NONE', *, *, #112, .F. ) ;
#334 = CARTESIAN_POINT ( 'NONE',  ( 0.1870000000000000551, 0.0000000000000000000, 5.965000000000000746 ) ) ;
#335 = CYLINDRICAL_SURFACE ( 'NONE', #200, 0.1970000000000000084 ) ;
#336 = ORIENTED_EDGE ( 'NONE', *, *, #70, .F. ) ;
#337 = COORDINATED_UNIVERSAL_TIME_OFFSET ( 5, 0, .BEHIND. ) ;
#338 = DIRECTION ( 'NONE',  ( -0.0000000000000000000, -0.0000000000000000000, 1.000000000000000000 ) ) ;
#339 = EDGE_LOOP ( 'NONE', ( #380 ) ) ;
#340 = EDGE_CURVE ( 'NONE', #301, #301, #45, .T. ) ;
#341 = PERSON_AND_ORGANIZATION_ROLE ( 'design_supplier' ) ;
#342 = CIRCLE ( 'NONE', #270, 0.2204999999999961990 ) ;
#343 = CYLINDRICAL_SURFACE ( 'NONE', #320, 0.3109999999999999987 ) ;
#344 = CC_DESIGN_APPROVAL ( #257, ( #4 ) ) ;
#345 = EDGE_LOOP ( 'NONE', ( #236 ) ) ;
#346 = APPROVAL_ROLE ( '' ) ;
#347 = ORIENTED_EDGE ( 'NONE', *, *, #393, .T. ) ;
#348 = PERSON_AND_ORGANIZATION_ROLE ( 'creator' ) ;
#349 = ORIENTED_EDGE ( 'NONE', *, *, #265, .T. ) ;
#350 = CARTESIAN_POINT ( 'NONE',  ( 0.0000000000000000000, 0.0000000000000000000, 38.59291338582676900 ) ) ;
#351 = CIRCLE ( 'NONE', #323, 0.2305000000000000382 ) ;
#352 = CC_DESIGN_PERSON_AND_ORGANIZATION_ASSIGNMENT ( #188, #311, ( #271 ) ) ;
#353 = EDGE_LOOP ( 'NONE', ( #336 ) ) ;
#354 = EDGE_CURVE ( 'NONE', #357, #357, #241, .T. ) ;
#355 = CC_DESIGN_APPROVAL ( #387, ( #271 ) ) ;
#356 = ADVANCED_FACE ( 'NONE', ( #163, #138 ), #413, .T. ) ;
#357 = VERTEX_POINT ( 'NONE', #296 ) ;
#358 = DIRECTION ( 'NONE',  ( 1.000000000000000000, 0.0000000000000000000, 0.0000000000000000000 ) ) ;
#359 = CONICAL_SURFACE ( 'NONE', #174, 0.2800000000000000266, 0.4768918676655325428 ) ;
#360 = CARTESIAN_POINT ( 'NONE',  ( -0.2799999999999998046, 0.0000000000000000000, 1.750000000000000000 ) ) ;
#361 = FACE_OUTER_BOUND ( 'NONE', #94, .T. ) ;
#362 = CARTESIAN_POINT ( 'NONE',  ( 0.0000000000000000000, 0.0000000000000000000, 37.64291338582677326 ) ) ;
#363 = EDGE_LOOP ( 'NONE', ( #194 ) ) ;
#364 = AXIS2_PLACEMENT_3D ( 'NONE', #78, #8, #204 ) ;
#365 = LENGTH_MEASURE_WITH_UNIT ( LENGTH_MEASURE( 0.02539999999999999897 ), #83 );
#366 = CARTESIAN_POINT ( 'NONE',  ( 0.0000000000000000000, 0.0000000000000000000, 0.9649999999999999689 ) ) ;
#367 = APPROVAL_DATE_TIME ( #219, #257 ) ;
#368 = DIRECTION ( 'NONE',  ( 0.0000000000000000000, 0.0000000000000000000, 1.000000000000000000 ) ) ;
#369 = EDGE_CURVE ( 'NONE', #176, #176, #206, .T. ) ;
#370 = PERSON_AND_ORGANIZATION ( #313, #16 ) ;
#371 = FACE_BOUND ( 'NONE', #53, .T. ) ;
#372 = ORIENTED_EDGE ( 'NONE', *, *, #269, .T. ) ;
#373 = DATE_TIME_ROLE ( 'creation_date' ) ;
#374 = AXIS2_PLACEMENT_3D ( 'NONE', #9, #108, #358 ) ;
#375 = FACE_OUTER_BOUND ( 'NONE', #82, .T. ) ;
#376 = APPROVAL_PERSON_ORGANIZATION ( #140, #387, #73 ) ;
#377 = FACE_BOUND ( 'NONE', #129, .T. ) ;
#378 = COORDINATED_UNIVERSAL_TIME_OFFSET ( 5, 0, .BEHIND. ) ;
#379 = CARTESIAN_POINT ( 'NONE',  ( 0.0000000000000000000, 0.0000000000000000000, 0.9649999999999999689 ) ) ;
#380 = ORIENTED_EDGE ( 'NONE', *, *, #369, .T. ) ;
#381 = EDGE_CURVE ( 'NONE', #307, #307, #316, .T. ) ;
#382 = CARTESIAN_POINT ( 'NONE',  ( 2.048885995248197414E-16, 0.0000000000000000000, 1.750000000000000000 ) ) ;
#383 = FACE_BOUND ( 'NONE', #409, .T. ) ;
#384 = DIRECTION ( 'NONE',  ( 1.000000000000000000, 0.0000000000000000000, 0.0000000000000000000 ) ) ;
#385 = AXIS2_PLACEMENT_3D ( 'NONE', #146, #18, #331 ) ;
#386 = FACE_OUTER_BOUND ( 'NONE', #273, .T. ) ;
#387 = APPROVAL ( #41, 'UNSPECIFIED' ) ;
#388 = CARTESIAN_POINT ( 'NONE',  ( 0.0000000000000000000, 0.0000000000000000000, 5.965000000000000746 ) ) ;
#389 = CARTESIAN_POINT ( 'NONE',  ( 0.0000000000000000000, 0.0000000000000000000, 75.81474264398107721 ) ) ;
#390 = AXIS2_PLACEMENT_3D ( 'NONE', #407, #338, #274 ) ;
#391 = CC_DESIGN_SECURITY_CLASSIFICATION ( #271, ( #233 ) ) ;
#392 = PLANE ( 'NONE',  #156 ) ;
#393 = EDGE_CURVE ( 'NONE', #298, #298, #75, .T. ) ;
#394 = DIRECTION ( 'NONE',  ( -0.0000000000000000000, -0.0000000000000000000, 1.000000000000000000 ) ) ;
#395 = DIRECTION ( 'NONE',  ( 1.000000000000000000, 0.0000000000000000000, 0.0000000000000000000 ) ) ;
#396 = CIRCLE ( 'NONE', #260, 0.1870000000000000551 ) ;
#397 = DIRECTION ( 'NONE',  ( 0.0000000000000000000, 0.0000000000000000000, 1.000000000000000000 ) ) ;
#398 = ORIENTED_EDGE ( 'NONE', *, *, #340, .T. ) ;
#399 = ADVANCED_FACE ( 'NONE', ( #417, #371 ), #359, .T. ) ;
#400 = CARTESIAN_POINT ( 'NONE',  ( 0.3109999999999999987, 0.0000000000000000000, 5.955000000000002736 ) ) ;
#401 = ORIENTED_EDGE ( 'NONE', *, *, #222, .F. ) ;
#402 = CARTESIAN_POINT ( 'NONE',  ( 0.1970000000000000084, 0.0000000000000000000, 38.59291338582676900 ) ) ;
#403 = CARTESIAN_POINT ( 'NONE',  ( 0.0000000000000000000, 0.0000000000000000000, 5.965000000000000746 ) ) ;
#404 = AXIS2_PLACEMENT_3D ( 'NONE', #234, #209, #47 ) ;
#405 = AXIS2_PLACEMENT_3D ( 'NONE', #379, #99, #384 ) ;
#406 = EDGE_CURVE ( 'NONE', #118, #118, #46, .T. ) ;
#407 = CARTESIAN_POINT ( 'NONE',  ( 0.0000000000000000000, 0.0000000000000000000, 1.045000000000000373 ) ) ;
#408 = DIRECTION ( 'NONE',  ( 1.000000000000000000, 0.0000000000000000000, 0.0000000000000000000 ) ) ;
#409 = EDGE_LOOP ( 'NONE', ( #333 ) ) ;
#410 = VERTEX_POINT ( 'NONE', #246 ) ;
#411 = DIRECTION ( 'NONE',  ( -1.000000000000000000, 0.0000000000000000000, 0.0000000000000000000 ) ) ;
#412 = CONICAL_SURFACE ( 'NONE', #231, 0.3010000000000009890, 0.7853981633974995713 ) ;
#413 = CYLINDRICAL_SURFACE ( 'NONE', #242, 0.3109999999999999987 ) ;
#414 = EDGE_LOOP ( 'NONE', ( #117 ) ) ;
#415 = ADVANCED_FACE ( 'NONE', ( #317, #375 ), #343, .T. ) ;
#416 = PERSON_AND_ORGANIZATION_ROLE ( 'creator' ) ;
#417 = FACE_OUTER_BOUND ( 'NONE', #186, .T. ) ;
#418 = ORIENTED_EDGE ( 'NONE', *, *, #393, .F. ) ;
ENDSEC;
END-ISO-10303-21;
